Aero Zeppelin — аккорды

Тональность
0
Прокуртка
0
Печать
Riff 1:

E------0-0-0---------------0-0-0-------0-
H------------3---3---------------3---3---
G--------------3---3---------------3-----
D-2-2------------------2-2---------------
A-2-2------------------2-2---------------
E-0-0------------------0-0---------------

Сыграть данную часть 2 раза как Вступление
Во время куплеты играть 3 раза, затем вот это:

E-----0-0-0---------------0-0-----------0-0-----
H-----------3---3-------------3-------------3---
G-------------3---3-------------3-------------3-
D-2-2-----------------2-2-----------2-2---------
A-2-2-----------------2-2-----------2-2---------
E-0-0-----------------0-0-----------0-0---------

What’s the season of love if you can’t have everything?
E------0-0-0---------------------0-0-0-------0-
H------------3---3---------------------3---3---
G--------------3---3---------------------3-----
D-2-2------------------------2-2---------------
A-2-2------------------------2-2---------------
E-0-0------------------------0-0---------------

What’s the reason of love if you can lose everything?
What’s the meaning of love? – It’s a crime if anything.
What’s the meaning of love? – It’s grand. It’s grand.
How a culture can forget it’s plan of yesterday?
And you swear it’s not a trend, does it matter anyways?
Harely heat the top of friend like it moves everyday
You could shit upon the stairs. You’ll be friends.
You’ll be friends. You’ll be friends. You’ll be friends.

Проигрыш
Riff 2:

D-2-2---------------2-2---------------
A-2-2--2-2-2-2/5--5-2-2-2-2-2-1---1---
E-0-0---------------0-0---------3---3-

Сыграть это 4 раза, как Проигрыш, затем:

Riff 3:

G-4-4-4/7--7--7--7-7---------------------------------------
D-4-4-4/7--7--7--7-7-------4--4-----3--3-----2--2-----1--1-
A-2-2-2/5--5--5--5-5-------4--4-----3--3-----2--2-----1--1-
E--------------------------4--4--0--3--3--0--2--2--0--1--1-

Сыграть это 3 раза, затем:

G-4-4-4/7--7--7--7-7-
D-4-4-4/7--7--7--7-7-
A-2-2-2/5--5--5--5-5-
E--------------------

D-4--4-----3--3-----2--2-----1--1-
A-4--4-----3--3-----2--2-----1--1- - 4 раза
E-4--4--0--3--3--0--2--2--0--1--1-

Затем:

D-2-2--------------
A-2-2--------------
E-0-0-5--5-4-0-5^4-

Сыграть это 4 раза, после чего тоже самое, но со словами:

And the kids have laid it out
D-2-2------------------------------
A-2-2------------------------------
E-0-0-5-----5--4-----0---5---^---4-
And it’s back is probably.
Still it’s subtle in the tape
Keep a form on equally.
Now you know it’s just the fact,
Where the world is nowadays.
And the day is what we learn.
Does it matter anyways? Ways! Ways!

(Это был все Riff 3)

Затем идет соло

После соло  Riff 2 - 4 раза, затем:

Riff 3:

G-4-4-4/7--7--7--7-7---------------------------------------
D-4-4-4/7--7--7--7-7-------4--4-----3--3-----2--2-----1--1-
A-2-2-2/5--5--5--5-5-------4--4-----3--3-----2--2-----1--1-
E--------------------------4--4--0--3--3--0--2--2--0--1--1-

Сыграть это 3 раза, затем:

G-4-4-4/7--7--7--7-7-
D-4-4-4/7--7--7--7-7-
A-2-2-2/5--5--5--5-5-
E--------------------

D-4--4-----3--3-----2--2-----1--1-
A-4--4-----3--3-----2--2-----1--1- - 4 раза
E-4--4--0--3--3--0--2--2--0--1--1-

Затем:

D-2-2--------------
A-2-2--------------
E-0-0-5--5-4-0-5^4-

Сыграть это 4 раза, после чего тоже самое, но со словами:

And the kids have laid it out
D-2-2------------------------------
A-2-2------------------------------
E-0-0-5-----5--4-----0---5---^---4-
And it’s back is probably.
Still it’s subtle in the tape
Keep a form on equally.
Now you know it’s just the fact,
Where the world is nowadays.
And the day is what we learn.
Does it matter anyways? Ways! Ways!

Потом Riff 1 - 2 раза.



Песня "Aero Zeppelin", в исполнении Nirvana, подойдет для изучения гитаристу любого уровня. Это довольно простая, но красивая песня. В любой компании наверняка кто-то захочет ее спеть и сыграть на гитаре. Аккорды и текст песни были составлены и проверены опытными гитаристами.

На сайте предусмотрена возможность перевести аккорды в удобную тональность, включать автоматическую прокрутку и распечатать аккорды. Для удобство предоставлены все аппликатуры аккордов, которые встречаются в песне "Aero Zeppelin". Если вы новичок, то можете подобрать аккорды без баре. Так же, вы можете найти другие аккорды песен, которые исполняет Nirvana.